**NO CLASSES IN NEXT FEW WEEKS** 

Guitar Class

Home

Eritrean Song. Em and Am

This is a nice tune to play for beginners. It has 2 chords: Em and Am. The original song is on Youtube

I have changed it to fit with Em. You can listen to it here - mp3

Here is a simplified tune, with chords shown along the bottom:


1---------0---3--0------------
2---0--3-----------3--0-----
3--------------------------
4--------------------------
5--------------------------
6--------------------------
   Em


1--------------------------
2---3-------0-------------------
3-----2--------2--0--------------
4-------------------2---------
5--------------------------
6--------------------------
      Am            Em